İzmirin Dağlarında Çiçekler Açar Nota

Konu, 'Müzik Notaları' kısmında Sesilya tarafından paylaşıldı.

  1. Sesilya

    Sesilya . . νє нυzυя . .

    Kayıt:
    18 Temmuz 2007
    Mesajlar:
    13.081
    Konular:
    7.161
    Beğeniler:
    299
            
    izmirin dağları tab - İzmirin dağlarında çiçekler açar notaları



    İZMİR MARŞI



    İzmirin dağlarında çiçekler açar. İzm irin dağlarında çiçekler açar.

    -------------------------------------------------------------------------------------
    --------10-10-10-10-10---11-10-8-11-10-----------10-10-10-10-10----11-10-8-11-10-----
    -----7-----------------------------------------7-------------------------------------
    -------------------------------------------------------------------------------------
    -------------------------------------------------------------------------------------
    -------------------------------------------------------------------------------------


    Altın güneş orda sırmalar saçar, Altın güneş orda sırmalar saçar

    ----10--8----------------------------------------------------------------------------
    -10-------11-10-8-10-8-------------------------10-8----------------------------------
    -----------------------10-9-10--------------10------10-9-7-10-9-7-6-7----------------
    -------------------------------------------------------------------------------------
    -------------------------------------------------------------------------------------
    -------------------------------------------------------------------------------------





    Bozulmuş düşmanlar yel gibi kaçar Boz ulmuş düşmanlar yel gibi kaçar

    -------------------------------------------------------------------------------------
    --------10-10-10-10-10---11-10-8-11-10-----------10-10-10-10-10----11-10-8-11-10-----
    -----7-----------------------------------------7-------------------------------------
    -------------------------------------------------------------------------------------
    -------------------------------------------------------------------------------------
    -------------------------------------------------------------------------------------


    yaşa Mustafa Kemal Paşa yaşa Adın ya zılacak mücevher taşa


    ----10--8----------------------------------------------------------------------------
    -10-------11-10-8-10-8-------------------------10-8----------------------------------
    -----------------------10-9-10--------------10------10-9-7-10-9-7-6-7----------------
    -------------------------------------------------------------------------------------
    -------------------------------------------------------------------------------------
    -------------------------------------------------------------------------------------

    alıntıdır

Sayfayı Paylaş